The Official EXODUS Forum


THE BONDED BY BLOOD CULT
It is currently Sat Jul 26, 2014 1:07 am

All times are UTC - 8 hours





Post new topic Reply to topic  [ 7 posts ] 
Author Message
 Post subject: ANGEL OF DEATH RIFF
PostPosted: Sun Nov 04, 2007 11:50 am 
Offline
Piranha
User avatar
 Profile

Joined: Mon Dec 05, 2005 1:36 pm
Posts: 1579
Location: Barcelona, Spain
The famous middle part...
What is the exact way to play it....
I mean the way KK plays it... Note exact...
anyone??


Top
 

 Post subject:
PostPosted: Sun Nov 04, 2007 11:15 pm 
Offline
Pleasures Of The Flesh
 WWW  Profile

Joined: Sat Dec 27, 2003 7:49 pm
Posts: 623
Location: Chicago
Are you talking about this riff?

Code:
eb|-------------------------------------------------|
Bb|-------------------------------------------------|
Gb|-------------------------------------------------|
Db|-------------------------------------------------|
Ab|--7h8p7-------------6h7p6---5h6p5---4h5p4-7h8p7--|
Eb|--------0-0-0-0-0-0-------0-------0--------------|
           * * * * * *       *       *
eb|----------------------------------|
Bb|----------------------------------|
Gb|----------8-7--------9------10-9--|
Db|--------9-----8-9-10-----10-------|
Ab|------8----------------9----------|
Eb|--0-0-----------------------------|
     * *

Guitar 2
eb|-------------------------------------------------|
Bb|-------------------------------------------------|
Gb|-------------------------------------------------|
Db|-------------------------------------------------|
Ab|--7h8p7-------------6h7p6---5h6p5---4h5p4-7h8p7--|
Eb|--------0-0-0-0-0-0-------0-------0--------------|
           * * * * * *       *       *
eb|--------------------------------|
Bb|--------------------------------|
Gb|--------------------------------|
Db|----------6-5-------7------9-8--|
Ab|--------7-----6-7-8-----10------|
Eb|--0-0-6---------------9---------|
     * *


Top
 

 Post subject:
PostPosted: Mon Nov 05, 2007 4:22 am 
Offline
Piranha
User avatar
 Profile

Joined: Mon Dec 05, 2005 1:36 pm
Posts: 1579
Location: Barcelona, Spain
Vic Rattlehead wrote:
Are you talking about this riff?

Code:
eb|-------------------------------------------------|
Bb|-------------------------------------------------|
Gb|-------------------------------------------------|
Db|-------------------------------------------------|
Ab|--7h8p7-------------6h7p6---5h6p5---4h5p4-7h8p7--|
Eb|--------0-0-0-0-0-0-------0-------0--------------|
           * * * * * *       *       *
eb|----------------------------------|
Bb|----------------------------------|
Gb|----------8-7--------9------10-9--|
Db|--------9-----8-9-10-----10-------|
Ab|------8----------------9----------|
Eb|--0-0-----------------------------|
     * *

Guitar 2
eb|-------------------------------------------------|
Bb|-------------------------------------------------|
Gb|-------------------------------------------------|
Db|-------------------------------------------------|
Ab|--7h8p7-------------6h7p6---5h6p5---4h5p4-7h8p7--|
Eb|--------0-0-0-0-0-0-------0-------0--------------|
           * * * * * *       *       *
eb|--------------------------------|
Bb|--------------------------------|
Gb|--------------------------------|
Db|----------6-5-------7------9-8--|
Ab|--------7-----6-7-8-----10------|
Eb|--0-0-6---------------9---------|
     * *



I've been checking out this video and i seems kerry is doing it different...
http://es.youtube.com/watch?v=swZ-W9gO-RM


Top
 

 Post subject:
PostPosted: Fri Nov 30, 2007 2:32 pm 
Offline
Seeds Of Hate
User avatar
 Profile

Joined: Sat Feb 18, 2006 2:11 pm
Posts: 2793
Location: The Devil's Workshop
You got that all wrong

PE play it better on She Watches Channel 0


Top
 

 Post subject:
PostPosted: Sat Dec 01, 2007 9:06 pm 
Offline
Piranha
User avatar
 Profile

Joined: Mon Dec 05, 2005 1:36 pm
Posts: 1579
Location: Barcelona, Spain
BangkokB wrote:
You got that all wrong

PE play it better on She Watches Channel 0



Post the link dude! *banger*


Top
 

 Post subject:
PostPosted: Tue Dec 04, 2007 11:09 am 
Offline
Pleasures Of The Flesh
User avatar
 Profile

Joined: Thu Jan 01, 2004 7:34 pm
Posts: 626
Location: NY LongIsland
maybe your getting confused due to the fact that JEFF AND KERRY both are harmonizing during the last section of the riff. One of them moves a string higher and a full step (or so?) up and plays the identical part


Top
 

 Post subject:
PostPosted: Fri Dec 07, 2007 10:42 am 
Offline
Seeds Of Hate
User avatar
 Profile

Joined: Sat Feb 18, 2006 2:11 pm
Posts: 2793
Location: The Devil's Workshop
ogrus wrote:
BangkokB wrote:
You got that all wrong

PE play it better on She Watches Channel 0



Post the link dude! *banger*

That song is that Riff sampled solely and that was my introduction to Public Enemy


Top
 

Display posts from previous:  Sort by  
Post new topic Reply to topic  [ 7 posts ] 

All times are UTC - 8 hours



Who is online

Users browsing this forum: No registered users and 0 guests


You cannot post new topics in this forum
You cannot reply to topics in this forum
You cannot edit your posts in this forum
You cannot delete your posts in this forum

Search for:
Jump to:  
Powered by phpBB © 2000, 2002, 2005, 2007 phpBB Group