The Official EXODUS Forum


THE BONDED BY BLOOD CULT
It is currently Sun Dec 21, 2014 7:53 am

All times are UTC - 8 hours





Post new topic Reply to topic  [ 10 posts ] 
Author Message
 Post subject: Rough Bedlam 123 tab
PostPosted: Wed Dec 12, 2007 2:06 pm 
Offline
Pleasures Of The Flesh
 WWW  Profile

Joined: Sat Dec 27, 2003 7:49 pm
Posts: 623
Location: Chicago
This is a very rough copy of what I have tabbed out so far. The section between the intro and verse is good, the verse is good, the solo rythym is good, the section after the solo should be good, everything else is either partial or just a rough idea of what I have. If the last two bars of the verse riff are fucked up its just confusion on my part.

Code:
Exodus: Bedlam 123

Tuning: D

Date last updated:  December 12, 2007

Riff 1
Guitar 1
d|---------------------------------------------------|
A|---------------------------------------------------|
F|---------------------------------------------------|
C|---------------------------------------------------|
G|--7--7-5-7-5-7-8-7--7-5-7-5-7-8-7-5h7--------------|
D|--0--0-0-0-0-0-0-0--0-0-0-0-0-0-0-0----------------|
    *  * * * * * * *  * * * * * * *

Riff 2
d|-------------------------------------|
A|-------------------------------------|
F|-------------------------------------|
C|-------------------------------------|
G|-------------------------------------|
D|-------------------------------------|

Riff 3
d|------------------------------------------------------|
A|------------------------------------------------------|
F|------------------------------------------------------|
C|----------------4------3------------------4--------6--|
G|--5------6------2------1-3--5------6------2------3-4--|
D|--3--000-4--000----000---1--3--000-4--000----000-1----|
       ***    ***    ***         ***    ***    ***

Riff 3a
d|------------------------------------------------------------|
A|------------------------------------------------------------|
F|------------------------------------------------------------|
C|------------------4-------3--------------------4---------6--|
G|--5-------6-------2-------1-3--5-------6-------2-------3-4--|
D|--3-00000-4-00000---00000---1--3-00000-4-00000---00000-1----|
      *****   *****   *****        *****   *****   *****
d|----------------------------------------------------------|
A|----------------------------------------------------------|
F|----------------------------------------------------------|
C|------------------4-------3--------------------4----------|
G|--5-------6-------2-------1-3--5-------6-------2-------3--|
D|--3-00000-4-00000---00000---1--3-00000-4-00000---------1--|
      *****   *****   *****        *****   *****

Riff 4
d|-----------------------------------------------------------------------|
A|-----------------------------------------------------------------------|
F|-----------------------------------------------------------------------|
C|--------------------------------------------8--------------------------|
G|----------7---5-6-5-------------------7-777-----7----------------------|
D|--0-000-0---0-------7-6-0-3h5-3p0-3/5---------0---6p0-0-000-0-000-000--|
    * *** *   *           *             * ***   *       * *** * *** ***
         "Turn on the havoc..."
d|--------------------------------------------------------|
A|--------------------------------------------------------|
F|--------------------------------------------------------|
C|--------------------------------------------4------3----|
G|--7---5---5-6-5---------------5------6------2------1-3--|
D|----0---0-------7-6-0-3p0-3/5-3--000-4--000----000---1--|
      *   *           *            ***    ***    ***
   "Random acts of violence..."
d|-----------------------------------------------------------------------|
A|-----------------------------------------------------------------------|
F|-----------------------------------------------------------------------|
C|--------------------------------------------8--------------------------|
G|----------7---5-6-5-------------------7-777-----7----------------------|
D|--0-000-0---0-------7-6-0-3h5-3p0-3/5---------0---6p0-0-000-0-000-000--|
    * *** *   *           *             * ***   *       * *** * *** ***
   "A din of destruction..."
d|--------------------------------------------------------|
A|--------------------------------------------------------|
F|--------------------------------------------------------|
C|--------------------------------------------4------3----|
G|--7---5---5-6-5---------------5------6------2------1-3--|
D|----0---0-------7-6-0-3p0-3/5-3--000-4--000----000---1--|
      *   *           *            ***    ***    ***
    "Countdown to bedlam..."
d|------------------------------------------------------|
A|------------------------------------------------------|
F|------------------------------------------------------|
C|----------------4--------6----------------4------3----|
G|--5------6------2------3-4--5------6------2------1-3--|
D|--3--000-4--000----000-1----3--000-4--000----000---1--|
       ***    ***    ***         ***    ***    ***
   "Accelerate..."
d|----------------------------|
A|----------------------------|
F|----------------------------|
C|----------------4--------7--|
G|--5------6------2------3-5--|
D|--3--000-4--000----000-1----|
       ***    ***    ***
   "Will celebrate..."

Riff 5
d|---------------------------------------|
A|---------------------------------------|
F|---------------------------------------|
C|---------------------------------------|
G|------7---5-6-5--------7---5-6-5-------|
D|--0-0---0-------7-6~-0---0-------7-6~--|
    * *   *            *   *
     "Feel the primal..."
d|----------------------------------|
A|----------------------------------|
F|----------------------------------|
C|----------------------------------|
G|----7---5-6-5--------5/7-----5/8--|
D|--0---0-------7-6~-0-3/5-333-3/6--|
    *   *            *     ***
     "Join the altercation..."
d|-------------------------------------|
A|-------------------------------------|
F|-------------------------------------|
C|-------------------------------------|
G|-------------------------------------|
D|-------------------------------------|

d|--------------------------------------|
A|--------------------------------------|
F|--------------------------------------|
C|--------------------------------------|
G|-----2------5/7-----2------5/8-----2--|
D|--6~-0--0-0-3/5-0-0-0--0-0-----0-0-0--|
          * *     * *    * *     * *
d|-------------------------------------|
A|-------------------------------------|
F|-------------------------------------|
C|-------------------------------------|
G|-------------------------------------|
D|-------------------------------------|

d|-------------------------------------------|
A|-------------------------------------------|
F|-------------------------------------------|
C|-------------------------------------------|
G|-------------------------------------------|
D|--6p0-0-000-0-000-000-6p0-0-000-0-000-000--|
        * *** * *** ***     * *** * *** ***
d|-----------------------------------------|
A|-----------------------------------------|
F|-----------------------------------------|
C|-----------------------------------------|
G|----------------------------7---5-6-5----|
D|--6p0-0-000-0-000-000-6p0-0---0-------7--|
        * *** * *** ***     *   *


d|------------------------------------------------------------|
A|------------------------------------------------------------|
F|------------------------------------------------------------|
C|------------------------------------------------------------|
G|-------2-----------/7~-5-6-5--------2-----------/7-5-6-5----|
D|--6~-0-0--00000000-----------7-6~-0-0--00000000----------7--|
       *    ********                *    ********

1st ending:
d|---------------------------------------------------------|
A|---------------------------------------------------------|
F|---------------------------------------------------------|
C|---------------------------------------------------------|
G|-------2-----------/7~-5-6-5------4----3----/7~-5-6-5----|
D|--6~-0-0--00000000-----------7-6~---5~---4~-----------7--|
       *    ********

2nd ending:
d|-------------------------------------------------------------------|
A|-------------------------------------------------------------------|
F|-------------------------------------------------------------------|
C|-------------------------------------------------------------------|
G|-------2-----------/7~-5-6-5------4----3-6-------------------------|
D|--6~-0-0--00000000-----------7-6~---5~---4----4-444-4-444-444---\--|
       *    ********                            * *** * *** ***


Top
 

 Post subject:
PostPosted: Wed Dec 12, 2007 2:08 pm 
Offline
Pleasures Of The Flesh
 WWW  Profile

Joined: Sat Dec 27, 2003 7:49 pm
Posts: 623
Location: Chicago
I don't know why it looks fucked up like that, it used to come out fine before. Just copy it into notepad I guess.


Top
 

 Post subject:
PostPosted: Wed Dec 12, 2007 4:02 pm 
Offline
Toxic Waltz
 Profile

Joined: Fri Jul 20, 2007 4:10 pm
Posts: 117
Location: Bydgoszcz, Poland
And where are the solos?


Top
 

 Post subject:
PostPosted: Wed Dec 12, 2007 6:58 pm 
Offline
Fabulous Disaster
 Profile

Joined: Tue Jan 17, 2006 8:58 pm
Posts: 253
Location: AUSTRALIA
Cheers Vic, Funeral Hymn next please.......


Top
 

 Post subject:
PostPosted: Wed Dec 12, 2007 7:23 pm 
Offline
Pleasures Of The Flesh
 WWW  Profile

Joined: Sat Dec 27, 2003 7:49 pm
Posts: 623
Location: Chicago
SLAYER71 wrote:
Cheers Vic, Funeral Hymn next please.......


Realistically, I'd say the next songs I tab will be Garden of Bleeding and Riot Act. The thing I hate about tabbing out songs is there will be just one note or riff that throws the whole thing off for me to be able to figure the song out. Like Funeral Hymn, I have no idea what the hell the first note in that song is.


Top
 

 Post subject:
PostPosted: Thu Dec 13, 2007 2:31 pm 
Offline
Pleasures Of The Flesh
 Profile

Joined: Tue Mar 23, 2004 12:38 pm
Posts: 511
Can you put initial time markers on there also. Thx.


Top
 

 Post subject:
PostPosted: Thu Dec 13, 2007 2:58 pm 
Offline
Toxic Waltz
 Profile

Joined: Fri Jul 20, 2007 4:10 pm
Posts: 117
Location: Bydgoszcz, Poland
Vic Rattlehead wrote:
SLAYER71 wrote:
Cheers Vic, Funeral Hymn next please.......


Realistically, I'd say the next songs I tab will be Garden of Bleeding and Riot Act. The thing I hate about tabbing out songs is there will be just one note or riff that throws the whole thing off for me to be able to figure the song out. Like Funeral Hymn, I have no idea what the hell the first note in that song is.


I can tab whole intro from funeral hymn, but i'm using guitar pro for tabbing only...


Oh, and, again: what about solos?


Top
 

 Post subject:
PostPosted: Thu Dec 13, 2007 3:01 pm 
Offline
Pleasures Of The Flesh
 WWW  Profile

Joined: Sat Dec 27, 2003 7:49 pm
Posts: 623
Location: Chicago
Riff 3 - 1:39
Riff 3a - 1:49
Riff 4 - 2:02
Riff 5 - 2:27

The last two riffs I don't have numbered, but the first one starts at 4:10 as the solo rhythm and is played until the next riff comes in at 5:04.


Top
 

 Post subject:
PostPosted: Thu Dec 13, 2007 3:04 pm 
Offline
Pleasures Of The Flesh
 WWW  Profile

Joined: Sat Dec 27, 2003 7:49 pm
Posts: 623
Location: Chicago
IgoR_KilleR wrote:
Vic Rattlehead wrote:
I can tab whole intro from funeral hymn, but i'm using guitar pro for tabbing only...


Oh, and, again: what about solos?


Can you show me what you've got for the beginning of Funeral Hymn? I don't mean the lead trill intro thing, just the rhythm.

I don't really tab solos, I don't have the patience for that sort of thing. Sometimes I'll put part of a lick down, but I just focus more on tabbing the rhythm.


Top
 

 Post subject:
PostPosted: Fri Dec 14, 2007 4:55 pm 
Offline
Fabulous Disaster
 Profile

Joined: Tue Jan 17, 2006 8:58 pm
Posts: 253
Location: AUSTRALIA
Igor if you cost post tab to Funeral Hymn that would be killer. *banger*


Top
 

Display posts from previous:  Sort by  
Post new topic Reply to topic  [ 10 posts ] 

All times are UTC - 8 hours



Who is online

Users browsing this forum: No registered users and 1 guest


You cannot post new topics in this forum
You cannot reply to topics in this forum
You cannot edit your posts in this forum
You cannot delete your posts in this forum

Search for:
Jump to:  
Powered by phpBB © 2000, 2002, 2005, 2007 phpBB Group